Attention ,y'a un piège ,si on veut jouer cette chanson comme Renaud ,il faudra jouer les premières mesures chantées en 7/8 jusqu'au SOL ,ou la ,il faut repasser en 4/4.Si vous jouez toute la chanson en 4/4, vous aurez le même rendu que la version de Élisabeth Anaïs (pour ceux qui connaissent) .C'est p't'être un peu technique ,mais les initiés comprendront et les autres s'en rendront compte tout seul grâce a leur oreille aiguisée.

Intro de Mistral Gagnant (4 / 4)

E||-----------7-----7-|-----5----------|-----------9-----9-|-----10----9----7-|

B||--------3----------|----------5-----|--------5----------|------------------|

G||-----4-------------|----------------|-----6-------------|------------------|

D||-------------------|----------------|-------------------|------------------|

A||-------------------|----------------|-------------------|------------------|

E||-------------------|----------------|-------------------|------------------|


----------10----10-|-----12-----------|-----------9----9-|-----6-----7-----|

-------7-----------|------------------|--------8--7------|-----------------|

-------------------|-----------12-----|-----9------------|--------6--7-----|

-------------------|------------------|------------------|-----------------|

-------------------|------------------|------------------|-----------------|

-------------------|------------------|------------------|-----------------|


---10-----------|---------------|---------------|--------------|-------------|

---7------------|---------------|---------------|--------------|-------------|

----------------|---------------|---------------|--------------|-------------|

----------------|---------------|---------------|--------------|-------------|

----------------|---------------|---------------|--------------|-------------|

----------------|---------------|---------------|--------------|-------------|